スポンサーサイト

上記の広告は1ヶ月以上更新のないブログに表示されています。
新しい記事を書く事で広告が消せます。

カップヌードル

日清のカップヌードルのCM
毎回面白いですねー
今回はBon JoviのYou Give Love A Bad Name
(邦題:禁じられた愛)の替え歌だー!
もちろん本人が吹き替えしています。



コードギターTAB付き歌詞

B♭
nowhere to run
F
No one can save me
...G
The damage is done

E|----------------|----------------|----------------|----------------|
B|----------------|----------------|----------------|----------------|
G|5---------------|----------------|----------------|8---5-----------|
D|5-----6-------6-|8---8---10------|6-----8---------|8---5-----------|
A|3-----6-------6-|8---8---10------|6-----8---------|6---3-----------|
E|------4-------4-|6---6---8-------|4-----6---------|----------------|
--息子--さ----んは-中--3--で-------受験--勉強し-----て--た----------

E|----------------|----------------|----------------|----------------|
B|----------------|----------------|----------------|----------------|
G|5---------------|----------------|----------------|8---5-----------|
D|5-----6-------6-|8---8---10------|6-----8---------|8---5-----------|
A|3-----6-------6-|8---8---10------|6-----8---------|6---3-----------|
E|------4-------4-|6---6---8-------|4-----6---------|----------------|
--夜食-の----カップヌード--ル-------お母--さんが忘---れ--た----------

E|--------------|----------------|----------------|----------------|
B|--------------|----------------|----------------|----------------|
G|--------------|----------------|----------------|----------------|
D|6-----8-------|----------------|--------1-1-----|--------1-1-----|
A|6-----8-------|----------------|3---1-3-----3-1-|3---1-3-----3---|
E|4-----6-------|----------------|--3-------------|--3-------------|
--息子-さんは----すねた

この味は、世界に一つ。


You Give Love A Bad Nameが収録されてるのは
Slippery When Wet
個人的に大好きな曲Wanted Dead Or Aliveも収録されている。

元ネタというか元のライブは
Live From London 1995
http://www.youtube.com/watch?v=40UQDEtRxp8

ギターアンプデカイの並べすぎ。
あんなとこでギター弾いてみたら気持ちいいだろうな

それは無理でもフェンダー最新デジタルモデリングアンプが発売された。
USBでPCに繋げて音色を変えたり、プリセットをDL出来たりかなり熱い仕様になっている。
これあればエフェクター無くても遊べる優れものだ!
アンプ探してるならこれは買いだよ!

関連記事
スポンサーサイト

テーマ : 音楽
ジャンル : 音楽

コメントの投稿

非公開コメント






プロフィール

ラヴィーズ

ネトゲPC音楽ギター等のブログ

LOL→loveez


カウンター
サイト内検索
カテゴリ
更新履歴カレンダー
03 | 2017/04 | 05
- - - - - - 1
2 3 4 5 6 7 8
9 10 11 12 13 14 15
16 17 18 19 20 21 22
23 24 25 26 27 28 29
30 - - - - - -
スポンサードリンク
他サイトリンク
【ゲームタイトル】+ブログ名
更新が無いブログは【休】です
相互リンク様募集
このブログをリンクに追加する

ネットゲーム全般・攻略ブログ
PSO2ブログ巡回屋 TERA・攻略ブログ





上記広告は1ヶ月以上更新のないブログに表示されています。新しい記事を書くことで広告を消せます。