スポンサーサイト

上記の広告は1ヶ月以上更新のないブログに表示されています。
新しい記事を書く事で広告が消せます。

Avril Lavigne Smile

昨日の流れでもう1個アヴリル

リズムが気持ちいいカッティングギターが印象的な
ノリノリなナンバー

Avril Lavigne Smile


ギターは簡単に耳コピ出来た。
楽譜見つからない人の為の簡単なAvril Lavigne Smile TAB
手動で書いた耳コピTABにつき微妙に間違ってても知りません。
適当に脳内で繰り返したり、勝手に繋いでお使いください。
TABの間隔は適当です。

レギュラーチューニング
----------------------------
----------------------------
--9s-----9--7---------------
--9s-----9--7--5------------
--7s-----7--5--5------------
---------------3------------ x2

----------------------------
----------------------------
--9s-----9--7---------------
--9s-----9--7--5------------
--7s-----7--5--5-----------5
---------------3-----3--7---


サビ
--3---3---3---3-----
--3---3---3---2-----
--------------3-----
--2-------2---------
--3---2---3---------
------3-------------


これだけで説明出来るほど簡単なギター
だけどカッティングが楽しい(∩´∀`)∩
カッティング部分はいちいち書くより
動画みたほうが早いしめんどくさいから書かなかった。

ギターは弾くから歌ってくれるアヴリル・ラヴィーン募集


関連記事
スポンサーサイト

テーマ : ギター
ジャンル : 音楽

コメントの投稿

非公開コメント

No title

俺の美声でいいんじゃね?

( ´,_ゝ`)クックック・・・( ´∀`)フハハハハ・・・(  ゚∀゚)ハァーハッハッハッハ!!

いあいあ

ワタシのうたを きけーーーーーーーーーーーっ ♪

もっけっけー もぎたーてなんちゃっら~ ♪

なんか。。

ごめ・・

うえの ななし うち。。

んで もっけけーじゃなくて もってっけーです。。。
ごめ。。

No title

ラヴィーさん
こんばんはー
22才OLでーす
かの先生のコメ見て、コーヒー吹きました
キーボードダメになったので
SideWinder X4 Keyboard これアマゾンでお願いします
安くてごめんね

うーん それにしても可愛いw
私的にはGirlfriend のメガネっこが好きです

Re: No title

>>金ちゃん
ニコ動にでも歌うpして叩かれてくれw

Re: なんか。。

>>かのちゃん
珍しく名無しからコメがあったと思ったらおまえかいっ
もっけけー もぎたてpretty chance でした。
射手座午後くじどみっれー 

Re: No title

>>なゆさん
確かに吹いたw
もっけけー しかも名無し
18歳女子高生家出中 8人の彼氏の家をハシゴ中でーす。

キーボード買うのかぁ
基本的に

ブログ→Amazon広告→違う商品検索→購入

でも僕の紹介になるんですよ(∩´∀`)∩
買ってくれるっていうんで置いときますね!ありがとうww

ベストダムシングのライブとかも超かわいいよアヴリル(´∀`*)

ありがとう!

ホント助かりましたーーー!!

Re: No title

>>ギター歴さん
こんな適当な記事でも役に立ててよかった( ´∀`)
原曲ならおそらくキーが+1ですヽ(゚∀゚)ノ





プロフィール

ラヴィーズ

ネトゲPC音楽ギター等のブログ

LOL→loveez


カウンター
サイト内検索
カテゴリ
更新履歴カレンダー
09 | 2017/10 | 11
1 2 3 4 5 6 7
8 9 10 11 12 13 14
15 16 17 18 19 20 21
22 23 24 25 26 27 28
29 30 31 - - - -
スポンサードリンク
他サイトリンク
【ゲームタイトル】+ブログ名
更新が無いブログは【休】です
相互リンク様募集
このブログをリンクに追加する

ネットゲーム全般・攻略ブログ
PSO2ブログ巡回屋 TERA・攻略ブログ





上記広告は1ヶ月以上更新のないブログに表示されています。新しい記事を書くことで広告を消せます。